Guitar Tab - "Animal I have Become" by Three Days Grace

Click Below to Watch and Listen to:

Three Days Grace - "Animal I have Become"
Album: One - X

Tabbed by: SICfreak91

Figured this song out with a acoustic guitar. Not a hard song to play. I'm not 100% sure
correct, but I tried hard. TDG seem to use different tunings ( dropped D, D flat,
C) in there past songs, so your never really sure what to use with them

TUNING: DROPPED C (C G C F A D)

This is my first tab by the way ...

Intro: (bass intro first)
|---------------------------------------------------------------|
|---------------------------------------------------------------|
|---------------------------------------------------------------|
|---------------------------------------------------------------|
|-00----------7-------------------------------------------------|
|-00------7-8---8-7---------------------------------------------|x4

|---------------------------------------------------------------|
|---------------------------------------------------------------|
|---------------------------------------------------------------|
|-00------------------------------------------------------------|
|-00----------7-------------------------------------------------|
|-00------7-8---8-7---------------------------------------------|x3

|---------------------------------------------------------------|
|---------------------------------------------------------------|
|---------------------------------------------------------------|
|-00------------------------------------------------------------|
|-00----------7-------------------------------------------------|
|-00------7-8---8-----------------------------------------------|x1

Verse:
|---------------------------------------------------------------|
|---------------------------------------------------------------|
|---------------------------------------------------------------|
|-33-333-333-333------------------------------------------------|
|-33-333-333-333----------00------7----------00------7----------|
|-33-333-333-333--3(P.H)v-00--7-8---8-7------00--7-8---8--------|x3

Pre-chorus:
|---------------------------------------------------------------|
|---------------------------------------------------------------|
|---------------------------------------------------------------|
|--33-333-333-333-3-555-555-5-8~--------------------------------|
|--33-333-333-333-3-555-555-5-8~--------------------------------|
|--33-333-333-333-3-555-555-5-8~--------------------------------|x1

Chorus:

Guitar 1:
|---------------------------------------------------------------|
|--------10's---------------------------------------------------|
|--------V------------------------------------------------------|
|-00-10101010-33-7-78--00-10101010-33-55-32---------------------|
|-00-10101010-33-7-78--00-10101010-33-55-32---------------------|
|-00-10101010-33-7-78--00-10101010-33-55-32---------------------|x1

|---------------------------------------------------------------|
|---------------------------------------------------------------|
|---------------------------------------------------------------|
|-00-10101010-33-7-78--00-10101010-33--5-3-2~-------------------|
|-00-10101010-33-7-78--00-10101010-33--5-3-2~-------------------|
|-00-10101010-33-7-78--00-10101010-33--5-3-2~-------------------|x1

Guitar 2:
|-------12-12-13-13-17~-17-18-------12-12-13-13-15~-13-12-------|
|-15-15-----------------------15-15-----------------------------|
|---------------------------------------------------------------|
|---------------------------------------------------------------|
|---------------------------------------------------------------|
|---------------------------------------------------------------|x2

Re-intro:
|---------------------------------------------------------------|
|---------------------------------------------------------------|
|---------------------------------------------------------------|
|---------------------------------------------------------------|
|-00----------7------00----------7------------------------------|
|-00------7-8---8-7--00------7-8---8----------------------------|x1

Verse 2:
|---------------------------------------------------------------|
|---------------------------------------------------------------|
|---------------------------------------------------------------|
|-33-333-333-333------------------------------------------------|
|-33-333-333-333----------00------7----------00------7----------|
|-33-333-333-333--3(P.H)v-00--7-8---8-7------00--7-8---8--------|x3

Pre-Chorus:
|---------------------------------------------------------------|
|---------------------------------------------------------------|
|---------------------------------------------------------------|
|--33-333-333-333-3-555-555-5-8~--------------------------------|
|--33-333-333-333-3-555-555-5-8~--------------------------------|
|--33-333-333-333-3-555-555-5-8~--------------------------------|x1

Chorus 2:

Guitar 1:
|---------------------------------------------------------------|
|--------10's---------------------------------------------------|
|--------V------------------------------------------------------|
|-00-10101010-33-7-78--00-10101010-33-55-32---------------------|
|-00-10101010-33-7-78--00-10101010-33-55-32---------------------|
|-00-10101010-33-7-78--00-10101010-33-55-32---------------------|x2

|---------------------------------------------------------------|
|---------------------------------------------------------------|
|---------------------------------------------------------------|
|-00-10101010-33-7-78--00-10101010-33--5-3-2-0~-----------------|
|-00-10101010-33-7-78--00-10101010-33--5-3-2-0~-----------------|
|-00-10101010-33-7-78--00-10101010-33--5-3-2-0~-----------------|x1

Guitar 2:
|-------12-12-13-13-17~-17-18-------12-12-13-13-15~-13-12-------|
|-15-15-----------------------15-15-----------------------------|
|---------------------------------------------------------------|
|---------------------------------------------------------------|
|---------------------------------------------------------------|
|---------------------------------------------------------------|x3

Bridge:
Quick pickslide THEN ...
|---------------------------------------------------------------|
|---------------------------------------------------------------|
|---------------------------------------------------------------|
|-88-888-555-5----------00-000-333-333-3------------------------|
|-88-888-555-5----7-----00-000-333-333-3------------------------|
|-88-888-555-5--8---8-7-00-000-333-333-3------------------------|x2

|---------------------------------------------------------------|
|---------------------------------------------------------------|
|-----------------9---------------------------------------------|
|-88-888-8--0-7-8---8-7--0~~------------------------------------|
|-88-888-8---------------0~~------------------------------------|
|-88-888-8---------------0~~------------------------------------|x1

Re-intro:
|---------------------------------------------------------------|
|---------------------------------------------------------------|
|---------------------------------------------------------------|
|---------------------------------------------------------------|
|-00----------7-------------------------------------------------|
|-00------7-8---8-7---------------------------------------------|x4

Chorus 3: (TWO riffs of no bass and treble first)

Guitar 1:
|---------------------------------------------------------------|
|--------10's---------------------------------------------------|
|--------V------------------------------------------------------|
|-00-10101010-33-7-78--00-10101010-33-55-32---------------------|
|-00-10101010-33-7-78--00-10101010-33-55-32---------------------|
|-00-10101010-33-7-78--00-10101010-33-55-32---------------------|x1

|---------------------------------------------------------------|
|---------------------------------------------------------------|
|---------------------------------------------------------------|
|-00-10101010-33-7-78--00-10101010-33--5-3-2-0~-----------------|
|-00-10101010-33-7-78--00-10101010-33--5-3-2-0~-----------------|
|-00-10101010-33-7-78--00-10101010-33--5-3-2-0~-----------------|x1

Guitar 2:
|-------12-12-13-13-17~-17-18-------12-12-13-13-15~-13-12-------|
|-15-15-----------------------15-15-----------------------------|
|---------------------------------------------------------------|
|---------------------------------------------------------------|
|---------------------------------------------------------------|
|---------------------------------------------------------------|x2

Outro:
|---------------------------------------------------------------|
|---------------------------------------------------------------|
|---------------------------------------------------------------|
|-00------------------------------------------------------------|
|-00----------7-------------------------------------------------|
|-00------7-8---8-7---------------------------------------------|x6

|---------------------------------------------------------------|
|---------------------------------------------------------------|
|-------9v------------------------------------------------------|
|-0-7-8----8-7--------------------------------------------------|
|---------------------------------------------------------------|
|---------------------------------------------------------------|x4

|---------------------------------------------------------------|
|---------------------------------------------------------------|
|---------------------------------------------------------------|
|-0~~~~~--------------------------------------------------------|
|-0~~~~~--------------------------------------------------------|
|-0~~~~~--------------------------------------------------------|x1

... THEN a long, kinda slow, pickslide to 1st fret

** Hope you like it ... please rate **

Be Sociable, Share!