Guitar Tab - "Chasing Cars" by Snow Patrol

Click Below to Watch and Listen to:

Artist: Snow Patrol
Song: Chasing Cars
Album: Eyes Open
Tuning: Standard
Tabber: Calum (afirock74@hotmail.com)

Intro/Verse:
e|------------------------------------------------------------------|
B|------------------------------------------------------------------|
G|--9-9-9-9-9-9-9-9-9-9-9-9-9-9-9-9-9-9-9-9-9-9-9-9-9-9-9-9-9-9-9-9-|
D|-7-7-7-7-7-7-7-7-7-7-7-7-7-7-7-7-6-6-6-6-6-6-6-6-0-0-0-0-0-0-0-0--|
A|------------------------------------------------------------------|
E|------------------------------------------------------------------|

Chorus:
e|----------------------------------------------------------------------------|
B|----------------------------------------------------------------------------|
G|--------------------------------------7-7-7-7-7-7-7-7-7---------------------|
D|-7-7-7-7-7-7-7-7-7--6-6-6-6-6-6-6-6-6-7-7-7-7-7-7-7-7-7--7-7-7-7-7-7-7-7-7--|
A|-7-7-7-7-7-7-7-7-7--7-7-7-7-7-7-7-7-7-5-5-5-5-5-5-5-5-5--7-7-7-7-7-7-7-7-7--|
E|-5-5-5-5-5-5-5-5-5--4-4-4-4-4-4-4-4-4--------------------5-5-5-5-5-5-5-5-5--|

Piano bit:
e|--9---------9---------9----------|
B|----9--10-----9--9/7-----9--10---|
G|---------------------------------|
D|---------------------------------|
A|---------------------------------|
E|---------------------------------|

Chorus Riff 1:
e|-------------------------------------------------------------------------------|
B|-10-10-10-10-10-10-10-10-10-10-10-10-10-10-10-10-10-10-10-10-10-10-10-10-10-10-|
G|-9--9--9--9--9--9--9--9--9--9--9--9--9--9--9--9--9--9--9--9--9--9--9--9--9--9--|
D|-7--7--7--7--7--7--7--7--7--7--6--6--6--6--6--6--6--6--0--0--0--0--0--0--0--0--|
A|-------------------------------------------------------------------------------|
E|-------------------------------------------------------------------------------|

End Of Chorus Riff:
e|---------------------------------------------|
B|---------------------------------------------|
G|---------------------------------------------|
D|--7-7-7-7--9-9-9-9-11-11-11-11-11-11-11-11---|
A|--x-x-x-x--x-x-x-x--x--x--x--x--x--x--x--x---|
E|--5-5-5-5--7-7-7-7--9--9--9--9--9--9--9--9---|

Outro:
e|------------------------------------------------------------------|
B|------------------------------------------------------------------|
G|--9-9-9-9-9-9-9-9-9-9-9-9-9-9-9-9-9-9-9-9-9-9-9-9-9-9-9-9-9-9-9-9-|
D|-7-7-7-7-7-7-7-7-7-7-7-7-7-7-7-7-6-6-6-6-6-6-6-6-0-0-0-0-0-0-0-0--|
A|------------------------------------------------------------------|
E|------------------------------------------------------------------|

Be Sociable, Share!