Guitar Tab - "Classico" by Tenacious D

Click Below to Watch and Listen to:

Song: Classico
Artist: Tenacious D
Album: The Pick Of Destiny
Tabbed by: Bryce White

Both Guitars Tuning: Standard (EADGBE)

Part I: Bouree In E Minor by Bach

Guitar I
E|-0--2--3--2--0----0--2-----------0----------------------------------------|
B|---------------4--------0--2--4-----3--1--0-------------------------------|
G|---------------------------------------------2--0-----0--2--4--2--0-------|
D|---------------------------------------------------4-----------------4--2-|
A|----------0----2-----------------------------0-----2--------2-------------|
E|-3--2--0----------------3--2-----0--2--0--3--------------------------2--0-|

Guitar II
E|-------3-------------------------0----------------------------------------|
B|---------------4--------0-----------------0-------------------------------|
G|------------------------------------------------------------4-------------|
D|---------------------------------------------------4-----------------4--2-|
A|---------------2-----------------------------------2--------2-------------|
E|-------0----------------3--------0--------3--------------------------2--0-|

Part II: Fur Elise by Beethoven

Guitar I
E|-7-6-7-6-7-----------------------------7-6-7-6-7--------------------------|
B|-----------7-10-8---------7-----7-8--------------7-10-8---------7---8-7---|
G|------------------9-----9-----8-------------------------9-----9---------9-|
D|----------------------9-------------------------------------9-------------|
A|--------------------7-------------------------------------7---------------|
E|----------------------------7--------7----------------------------7-------|

Guitar II
E|------------------7---------------7---------------------7---------------7-|
B|------------------8-------4-------8---------------------8-------4-------8-|
G|------------------9-------4-------9---------------------9-------4-------9-|
D|------------------9-------4-------9---------------------9-------4-------9-|
A|------------------7-------2-------7---------------------7-------2-------7-|
E|--------------------------------------------------------------------------|

Guitar I
E|---------7-7-8-7-------7-------------------------------------------------|
B|----8-10---------10-10---10-8-8-10-8-7-----------------------------------|
G|--9----------------------------------------------------------------------|
D|---------------------------------------9-9-8-9-8-9-8---------------------|
A|-------------------------------------------------------------------------|
E|-----------------------------------------------------7-6-7-6-7-6---------|

Guitar II
E|---------7-------5--------3----------2-----------------------------------|
B|---------8-------7--------5----------4-----------------------------------|
G|---------7-------7--------4----------4-----------------------------------|
D|-------------------------------------------------------------------------|
A|-------------------------------------------------------------------------|
E|-------------------------------------------------------------------------|

Guitar I
E|-------------------------------------------------------------------------|
B|-12-11-12-11-12----------------------------------------------------------|
G|----------------11-14-12-------------------------------------------------|
D|--------------------------14tremolo13------------------------------------|
A|-------------------------------------------------------------------------|
E|-------------------------------------------------------------------------|

Guitar II
E|-------------------------------------------------------------------------|
B|-------------------------------------------------------------------------|
G|-------------------------------------------------------------------------|
D|-------------------------------------------------------------------------|
A|-------------------------------------------------------------------------|
E|-------------------------------------------------------------------------|

Part III: Eine Kleine Nachtmusik by Mozart

Guitar I
E|------------------------------------------------------0------------------|
B|-----------------7--5-2-5-2-5-2---2-------4-2-------2-----2-0-4-2--------|
G|---------------8----------------3-----4-4-----4-4-3-----3---------4-4-3--|
D|-9---9---9---9----------------------4------------------------------------|
A|---9---9---9-------------------------------------------------------------|
E|-------------------------------------------------------------------------|

Guitar II
E|-7---7---7---7---7--0---0---0---0--0-------------------------------------|
B|-7---7---7---7---7--0---0---0---0--0-------------------------------------|
G|-8---8---8---8---8--1---1---1---1--1--4-----------3---------4---------3--|
D|-9---9---9---9---9--2---2---2---2--2--4-----------2---------4---------2--|
A|-9---9---9---9---9--2---2---2---2--2--2---------------------2------------|
E|-7---7---7---7---7--0---0---0---0--0-------------------------------------|

Guitar I
E|---0------------------------------------------2h4-2-0-0-0-0--------------|
B|-2------------------------------4-4-2h4p2h4-4---------------4-4-4-4------|
G|-----3-4-4-3h4p3h4--4-4-3h4p3h4------------------------------------------|
D|-------------------------------------------------------------------------|
A|-------------------------------------------------------------------------|
E|-------------------------------------------------------------------------|

Guitar II
E|-------------------------------------------------------------------------|
B|-------------------------------------------------------------------------|
G|---------4---------------------------------------------------------------|
D|---------4----------------------------------------4---------4------------|
A|---------2---------------------------------------------------------------|
E|-------------------------------------------------------------------------|

Guitar I
E|-------------------------------------------------------------------------|
B|-4-4-4-4-2-2-2-2-0-----0-------------------------------------------------|
G|-------------------1-3--------------------------------6-8-10-11----10----|
D|----------------------------------------------------9-----------11----11-|
A|-------------------------------------------------------------------------|
E|-------------------------------------------------------------------------|

Guitar II
E|-----------------------7-------------------------------------------------|
B|-----------------------7-------------------------------------------------|
G|-----------------------8-------------------------------------11----10----|
D|-----------------------9--Play 14 times----------------------11----11----|
A|-----------------------9-------------------------------------9-----9-----|
E|-----------------------7-------------------------------------------------|

Guitar I
E|-------------------------------------------------------------------------|
B|-------------------------------------------------------------------------|
G|-10----11----10----10----11-11-11-11-10-10-10-10-10-10-10-11-11-11-------|
D|----11----11----11----11-11-11-11-11-11-11-11-11-11-11-11-11-11-11-------|
A|-------------------------------------------------------------------------|
E|-------------------------------------------------------------------------|

Guitar II
E|-------------------------------------------------------------------------|
B|-------------------------------------------------------------------------|
G|-10----11----10----10----11-11-11-11-10-10-10-10-10-10-10-11-11-11-------|
D|-11----11----11----11----11-11-11-11-11-11-11-11-11-11-11-11-11-11-------|
A|-9-----9-----9-----9-----9--9--9--9--9--9--9--9--9--9--9--9--9--9--------|
E|-------------------------------------------------------------------------|

Be Sociable, Share!