Guitar Tab - "Killing In The Name" by Rage Against The Machine

Click Below to Watch and Listen to:

Rage Against The Machine
Killing In The Name

Tab by Lirikal

Tuning:D A D G B e

      b=Bend
      x=Mute
     PM=Palm Mute
      h=HammerOn
      p=PullOff
  s,\,/=Slide
    (X)=With Whammy Pedal
      ~=Vibrato

INTRO:

    D5
e:--------------------------------------------------------|
B:--2----2----2----2--------------------------------------|
G:--3----3----3----3--------------------------------8-----|
D:--0----0----0----0--------------------------------------|
A:--0----0----0----0--------------------------------------|
D:--0----0----0----0--------------------------------------|

                          __________________________________________________
                       x3 |1.                      |2.
e:-|----------------------|------------------------|------------------------|
B:-|----------------------|------------------------|------------------------|
G:-|*-------------11-12--*|--------------12b13b12-*|--------------12b14b12--|
D:-|*-------11-12--------*|--------11-12----------*|--------11-12-----------|
A:-|----------------------|------------------------|------------------------|
D:-|--0-0-0---------------|--0-0-0-----------------|--0-0-0-----------------|

      D5    Eb5   x3   D5
e:-|----------------|-------------|
B:-|----------------|-------------|
G:-|*--------------*|---------8---|
D:-|*-------8-8-8--*|-------------|
A:-|--0-0-0-6-6-6---|--0-0-0------|
D:-|--0-0-0---------|--0-0-0------|

                                 x4
e:-|---------------------------------|
B:-|---------------------------------|
G:-|*------------------------------*-|
D:-|*------------3h4---------------*-|
A:-|-----3h5-x-x-----5--0--2s3--2----|
D:-|--0-----------------0--2s3--2----|

VERSE:

                                  x8
      PM-------------------------------|
e:-|--------------------------------|--|
B:-|--------------------------------|--|
G:-|*------------------------------*|--|
D:-|*------------3h4---------------*|--|
A:-|-----3h5-x-x-----5--0--2s3--2---|--|
D:-|--0-----------------0--2s3--2---|--|

                         (2º verse, 4ºtime)
e:------------------------------------------|
B:------------------------------------------|
G:-------------------------------------10~--|
D:--------------3h4-----------10-11-12------|
A:------3h5-x-x------10-11-12---------------|
D:---0--------------------------------------|

CHORUS:

                                                    E5F5E5F5 E5
e:--------------------------------------------------------------|
B:--------------------------------------------------------------|
G:--------------------------------------------------------------|
D:-------------/9-------------/8-------------/7-----------------|
A:-----3h5-x-x--------3h5-x-x--------3h5-x-x--------2s3-2s3--2--|
D:--0--------------0--------------0--------------0--2s3-2s3--2--|

                                                 C5
                                                 PM----------------|
e:-----------------------------------------------------------------|
B:-----------------------------------------------------------------|
G:-----------------------------------------------------------------|
D:-------------/9-------------/8-------------/7--5-5-5-5-5-5-5-5---|
A:-----3h5-x-x--------3h5-x-x--------3h5-x-x-----3-3-3-3-3-3-3-3---|
D:--0--------------0--------------0--------------------------------|

       D5       x4     D5                              x4
e:-|---------------|--------------------------------------|--|
B:-|---------------|----------------x-x-x-x-x-x-x-x-x-----|--|
G:-|*--7--7----7--*|*--7--7--x-7----x-x-x-x-x-x-x-x-x----*|--|
D:-|*-------------*|*--------x------x-x-x-x-x-x-x-x-x----*|--|
A:-|---5--5----5---|---5--5--x-5--------------------------|--|
D:-|---------------|----------------------------------0---|--|

       D5                         x3    D5        A5D5
e:-|---------------------------------|---------------------------------------------|
B:-|---------------------------------|---------------------------------------------|
G:-|*--7--7--x-7----x-x-x-x-x-x-7\--*|--7--7--x-7\2/19-19-19-19-19-19-19-19-19-19--|
D:-|*--------x------x-x-x-x-x-x-----*|--------x------------------------------------|
A:-|---5--5--x-5----x-x-x-x-x-x-5\---|--5--5--x-5\0/17-17-17-17-17-17-17-17-17-17--|
D:-|---------------------------------|---------------------------------------------|

       D5                F5 G5  C5 x8
e:-|---------------------------------|--|
B:-|---------------------------------|--|
G:-|*--7--7--x-7--x-7--x--------5---*|--|
D:-|*--------x----x----x-3--5---5---*|--|
A:-|---5--5--x-5--x-5--x-3--5---3----|--|
D:-|---------------------3--5--------|--|

SOLO:

                                                         (w/Whammy)

e:-|-(8)(8)(8)-8-8-8-(5)(5)(5)-5-5-5---------------------------------|
B:-|---------------------------------(8)(8)(8)-8-8-8-(6)(6)(6)-6-6-6-|
G:-|*----------------------------------------------------------------|
D:-|*----------------------------------------------------------------|
A:-|-----------------------------------------------------------------|
D:-|-----------------------------------------------------------------|

   ___________________________________________________________________________
   |1.                                 |2.
e:---------------------------------(5)-|--------------------------------------|
B:-------------------------------------|--------------------------------------|
G:-(7)(7)(7)-7-7-7-(5)(5)(5)-5-5-5----*|-(7)(7)(7)-7-7-7-(5)(5)(5)-5-5-5-(7)~-|
D:------------------------------------*|--------------------------------------|
A:-------------------------------------|--------------------------------------|
D:-------------------------------------|--------------------------------------|

e:-5h8-(5)(8)(5)(8)(5)(8)(5)(8)(5)-8-5-8-(5)(8)(5)(8)(5)(8)(5)(8)(5)(8)-|
B:----------------------------------------------------------------------|
G:----------------------------------------------------------------------|
D:----------------------------------------------------------------------|
A:----------------------------------------------------------------------|
D:----------------------------------------------------------------------|

e:---------------------------------------------------------------------------------|
B:------------------------------------------------------3/(15)~--5/(17)~-----------|
G:------------------------------------------------------------------------1/(13)~--|
D:-(5)h(7)p(5)h(7)p(5)h(7)p5h7p5h7p5h7-(7)h(9)p(7)h(9)-----------------------------|
A:---------------------------------------------------------------------------------|
D:---------------------------------------------------------------------------------|

(Alternative fingering, the way I play it)

e:-|--------------------------------------------------------------------|
B:-|--------------------------------------------------------------------|
G:-|*-(17)(17)(17)-17-17-17-(14)(14)(14)-14-14-14-----------------------|
D:-|*---------------------------------------------(17)(17)(17)-17-17-17-|
A:-|--------------------------------------------------------------------|
D:-|--------------------------------------------------------------------|

e:-|--------------------------------------------------------------------|
B:-|--------------------------------------------------------------------|
G:-|--------------------------------------------------------------------|
D:-|-(15)(15)(15)-15-15-15----------------------------------------------|
A:-|-----------------------(17)(17)(17)-17-17-17-(15)(15)(15)-15-15-15--|
D:-|--------------------------------------------------------------------|

   _____________
   |1.   |2.
e:-------|------|
B:-------|------|
G:-(14)-*|------|
D:------*|------|
A:-------|-(17)-|
D:-------|------|

e:--------------------------------------------------------------
B:-10h13-(10)h(13)p(10)h(13)p(10)h(13)p(10)h(13)p(10)h13p10h13p-
G:--------------------------------------------------------------
D:--------------------------------------------------------------
A:--------------------------------------------------------------
D:--------------------------------------------------------------

e:---------------------------------------------------
B:-(10)h(13)p(10)h(13)p(10)h(13)p(10)h(13)p(10)h(13)-
G:---------------------------------------------------
D:---------------------------------------------------
A:---------------------------------------------------
D:---------------------------------------------------

e:----------------------------------------------------------------------------------|
B:-(8)h(10)p(8)h(10)p(8)h(10)p8h10p8h10p8h10-(8)h(10)p(8)h(10)--/(15)~-/(17)~-------|
G:---------------------------------------------------------------------------/(13)~-|
D:----------------------------------------------------------------------------------|
A:----------------------------------------------------------------------------------|
D:----------------------------------------------------------------------------------|

OUTRO:

    D5
e:--------------------------------------------------|
B:--------------------------------------------------|
G:--7-7-7-7-7-7-7-7-7-7-7-7-7-7-7-7-7-7-7-7-7-7-7-7-|
D:--------------------------------------------------|
A:--5-5-5-5-5-5-5-5-5-5-5-5-5-5-5-5-5-5-5-5-5-5-5-5-|
D:--------------------------------------------------|

    E5
e:--------------------------------------------------|
B:--------------------------------------------------|
G:--9-9-9-9-9-9-9-9-9-9-9-9-9-9-9-9-9-9-9-9-9-9-9-9-|
D:--------------------------------------------------|
A:--7-7-7-7-7-7-7-7-7-7-7-7-7-7-7-7-7-7-7-7-7-7-7-7-|
D:--------------------------------------------------|

    F5
e:---------------------------------------------------|
B:---------------------------------------------------|
G:--101010101010101010101010101010101010101010101010-|
D:---------------------------------------------------|
A:--8-8-8-8-8-8-8-8-8-8-8-8-8-8-8-8-8-8-8-8-8-8-8-8--|
D:---------------------------------------------------|

    G5
e:--------------------------------------------------------------------------|
B:--------------------------------------------------------------------------|
G:--12-12-12-12-12-12-12-12-12-12-12-12-12-12-12-12-12-12-12-12-12-12-12-12-|
D:--------------------------------------------------------------------------|
A:--10-10-10-10-10-10-10-10-10-10-10-10-10-10-10-10-10-10-10-10-10-10-10-10-|
D:--------------------------------------------------------------------------|

    A5
e:--------------------------------------------------------------------------|
B:--------------------------------------------------------------------------|
G:--14-14-14-14-14-14-14-14-14-14-14-14-14-14-14-14-14-14-14-14-14-14-14-14-|
D:--------------------------------------------------------------------------|
A:--12-12-12-12-12-12-12-12-12-12-12-12-12-12-12-12-12-12-12-12-12-12-12-12-|
D:--------------------------------------------------------------------------|

    Bb5
e:--------------------------------------------------------------------------|
B:--------------------------------------------------------------------------|
G:--15-15-15-15-15-15-15-15-15-15-15-15-15-15-15-15-15-15-15-15-15-15-15-15-|
D:--------------------------------------------------------------------------|
A:--13-13-13-13-13-13-13-13-13-13-13-13-13-13-13-13-13-13-13-13-13-13-13-13-|
D:--------------------------------------------------------------------------|

    C5
e:--------------------------------------------------------------------------|
B:--------------------------------------------------------------------------|
G:--17-17-17-17-17-17-17-17-17-17-17-17-17-17-17-17-17-17-17-17-17-17-17-17-|
D:--------------------------------------------------------------------------|
A:--15-15-15-15-15-15-15-15-15-15-15-15-15-15-15-15-15-15-15-15-15-15-15-15-|
D:--------------------------------------------------------------------------|

    D5
e:-------------------------------------------------------|
B:-------------------------------------------------------|
G:--19-19-19-19\-19-19-19-19\-19-19-19-19\-19-19-19-19\--|
D:-------------------------------------------------------|
A:--17-17-17-17\-17-17-17-17\-17-17-17-17\-17-17-17-17\--|
D:-------------------------------------------------------|

       D5                   F5 G5  C5  x8    Dm7                            x4
e:-|-------------------------------------|---5-5-----5-5-5-5-----5-5-5----------|
B:-|-------------------------------------|---6-6-x-x-6-6-6-6-x-x-6-6-6-x-x-x----|
G:-|*--7--7--x-x--7--x-7--x--------5----*|*--5-5-x-x-5-5-5-5-x-x-5-5-5-x-x-x--*-|
D:-|*--------x-x-----x----x-3--5---5----*|*------x-x---------x-x-------x-x-x--*-|
A:-|---5--5--x-x--5--x-5--x-3--5---3-----|---5-5-x-x-5-5-5-5-x-x-5-5-5-x-x-x----|
D:-|------------------------3--5---------|--------------------------------------|

e:----------------------------------------------------------------------------|
B:----------------------------------------------------------------------------|
G:--7-7-7-7-7-7-7-7-7-7-7-7-7-7-7-7-7-7-7-7-7-7-7-7---------------------------|
D:------------------------------------------------------------8--8--8-----8\--|
A:--5-5-5-5-5-5-5-5-5-5-5-5-5-5-5-5-5-5-5-5-5-5-5-5--0--0--0--6--6--6-----6\--|
D:---------------------------------------------------0--0--0------------------|

Enjoy It!!

Be Sociable, Share!